  0
SECTION
  2
HEADER
  9
$ACADVER
  1
AC1009
  9
$INSBASE
 10
0.0
 20
0.0
 30
0.0
  9
$EXTMIN
 10
-6.4853309206335998
 20
-19.404611292498771
 30
-0.0000000349181948
  9
$EXTMAX
 10
20.715814322368029
 20
45.094848524565798
 30
0.0000000814935747
  9
$LIMMIN
 10
0.0
 20
0.0
  9
$LIMMAX
 10
420.0
 20
297.0
  9
$ORTHOMODE
 70
     1
  9
$REGENMODE
 70
     1
  9
$FILLMODE
 70
     1
  9
$QTEXTMODE
 70
     0
  9
$MIRRTEXT
 70
     1
  9
$DRAGMODE
 70
     2
  9
$LTSCALE
 40
1.0
  9
$OSMODE
 70
   959
  9
$ATTMODE
 70
     1
  9
$TEXTSIZE
 40
3.5
  9
$TRACEWID
 40
1.0
  9
$TEXTSTYLE
  7
STANDARD
  9
$CLAYER
  8
0
  9
$CELTYPE
  6
BYLAYER
  9
$CECOLOR
 62
   256
  9
$DIMSCALE
 40
1.0
  9
$DIMASZ
 40
3.3019999999999992
  9
$DIMEXO
 40
1.0
  9
$DIMDLI
 40
3.75
  9
$DIMRND
 40
0.0
  9
$DIMDLE
 40
0.0
  9
$DIMEXE
 40
1.0
  9
$DIMTP
 40
0.0
  9
$DIMTM
 40
0.0
  9
$DIMTXT
 40
3.5
  9
$DIMCEN
 40
2.5
  9
$DIMTSZ
 40
0.0
  9
$DIMTOL
 70
     0
  9
$DIMLIM
 70
     0
  9
$DIMTIH
 70
     1
  9
$DIMTOH
 70
     1
  9
$DIMSE1
 70
     0
  9
$DIMSE2
 70
     0
  9
$DIMTAD
 70
     1
  9
$DIMZIN
 70
     0
  9
$DIMBLK
  1

  9
$DIMASO
 70
     1
  9
$DIMSHO
 70
     1
  9
$DIMPOST
  1

  9
$DIMAPOST
  1

  9
$DIMALT
 70
     0
  9
$DIMALTD
 70
     3
  9
$DIMALTF
 40
0.0393700787401575
  9
$DIMLFAC
 40
1.0
  9
$DIMTOFL
 70
     1
  9
$DIMTVP
 40
0.0
  9
$DIMTIX
 70
     0
  9
$DIMSOXD
 70
     0
  9
$DIMSAH
 70
     0
  9
$DIMBLK1
  1

  9
$DIMBLK2
  1

  9
$DIMSTYLE
  2
ISO-25
  9
$DIMCLRD
 70
     0
  9
$DIMCLRE
 70
     0
  9
$DIMCLRT
 70
     0
  9
$DIMTFAC
 40
1.0
  9
$DIMGAP
 40
1.524
  9
$LUNITS
 70
     2
  9
$LUPREC
 70
     2
  9
$SKETCHINC
 40
1.0
  9
$FILLETRAD
 40
10.0
  9
$AUNITS
 70
     0
  9
$AUPREC
 70
     2
  9
$MENU
  1
.
  9
$ELEVATION
 40
0.0
  9
$PELEVATION
 40
0.0
  9
$THICKNESS
 40
0.0
  9
$LIMCHECK
 70
     0
  9
$BLIPMODE
 70
     0
  9
$CHAMFERA
 40
0.0
  9
$CHAMFERB
 40
0.0
  9
$SKPOLY
 70
     0
  9
$TDCREATE
 40
2457724.4809292252
  9
$TDUPDATE
 40
2457728.4491340742
  9
$TDINDWG
 40
0.0458905093
  9
$TDUSRTIMER
 40
0.0458904051
  9
$USRTIMER
 70
     1
  9
$ANGBASE
 50
0.0
  9
$ANGDIR
 70
     0
  9
$PDMODE
 70
     0
  9
$PDSIZE
 40
-1.0
  9
$PLINEWID
 40
0.0
  9
$COORDS
 70
     1
  9
$SPLFRAME
 70
     0
  9
$SPLINETYPE
 70
     6
  9
$SPLINESEGS
 70
     8
  9
$ATTDIA
 70
     0
  9
$ATTREQ
 70
     1
  9
$HANDLING
 70
     1
  9
$HANDSEED
  5
7BD
  9
$SURFTAB1
 70
     6
  9
$SURFTAB2
 70
     6
  9
$SURFTYPE
 70
     6
  9
$SURFU
 70
     6
  9
$SURFV
 70
     6
  9
$UCSNAME
  2

  9
$UCSORG
 10
0.0
 20
0.0
 30
0.0
  9
$UCSXDIR
 10
1.0
 20
0.0
 30
0.0
  9
$UCSYDIR
 10
0.0
 20
1.0
 30
0.0
  9
$PUCSNAME
  2

  9
$PUCSORG
 10
0.0
 20
0.0
 30
0.0
  9
$PUCSXDIR
 10
1.0
 20
0.0
 30
0.0
  9
$PUCSYDIR
 10
0.0
 20
1.0
 30
0.0
  9
$USERI1
 70
     0
  9
$USERI2
 70
     0
  9
$USERI3
 70
     0
  9
$USERI4
 70
     0
  9
$USERI5
 70
     0
  9
$USERR1
 40
0.0
  9
$USERR2
 40
0.0
  9
$USERR3
 40
0.0
  9
$USERR4
 40
0.0
  9
$USERR5
 40
0.0
  9
$WORLDVIEW
 70
     1
  9
$SHADEDGE
 70
     3
  9
$SHADEDIF
 70
    70
  9
$TILEMODE
 70
     1
  9
$MAXACTVP
 70
    64
  9
$PLIMCHECK
 70
     0
  9
$PEXTMIN
 10
1.0000000000000000E+020
 20
1.0000000000000000E+020
 30
1.0000000000000000E+020
  9
$PEXTMAX
 10
-1.0000000000000000E+020
 20
-1.0000000000000000E+020
 30
-1.0000000000000000E+020
  9
$PLIMMIN
 10
0.0
 20
0.0
  9
$PLIMMAX
 10
420.0
 20
297.0
  9
$UNITMODE
 70
     0
  9
$VISRETAIN
 70
     1
  9
$PLINEGEN
 70
     0
  9
$PSLTSCALE
 70
     1
  0
ENDSEC
  0
SECTION
  2
TABLES
  0
TABLE
  2
VPORT
 70
     1
  0
VPORT
  2
*ACTIVE
 70
     0
 10
0.0
 20
0.0
 11
1.0
 21
1.0
 12
9.7780632356852735
 22
16.8392645990278
 13
0.0
 23
0.0
 14
10.0
 24
10.0
 15
10.0
 25
10.0
 16
0.0
 26
0.0
 36
1.0
 17
0.0
 27
0.0
 37
0.0
 40
103.67827202295619
 41
1.1682905225863589
 42
50.0
 43
0.0
 44
0.0
 50
0.0
 51
0.0
 71
     0
 72
   100
 73
     1
 74
     3
 75
     0
 76
     0
 77
     0
 78
     0
  0
ENDTAB
  0
TABLE
  2
LTYPE
 70
     6
  0
LTYPE
  2
CONTINUOUS
 70
     0
  3
Solid line
 72
    65
 73
     0
 40
0.0
  0
LTYPE
  2
HIDDEN
 70
     0
  3
Hidden __ __ __ __ __ __ __ __ __ __ __ __ __ __
 72
    65
 73
     2
 40
1.905
 49
1.27
 49
-0.635
  0
LTYPE
  2
PHANTOM
 70
     0
  3
Phantom ______  __  __  ______  __  __  ______
 72
    65
 73
     6
 40
12.699999999999999
 49
6.349999999999997
 49
-1.27
 49
1.27
 49
-1.27
 49
1.27
 49
-1.27
  0
LTYPE
  2
CENTER
 70
     0
  3
Center ____ _ ____ _ ____ _ ____ _ ____ _ ____
 72
    65
 73
     4
 40
10.16
 49
6.349999999999997
 49
-1.27
 49
1.27
 49
-1.27
  0
LTYPE
  2
CENTERX2
 70
     0
  3
Center (2x) ________  __  ________  __  _____
 72
    65
 73
     4
 40
20.32
 49
12.699999999999999
 49
-2.54
 49
2.54
 49
-2.54
  0
LTYPE
  2
DOT2
 70
     0
  3
Dot (.5x) ........................................
 72
    65
 73
     2
 40
0.635
 49
0.0
 49
-0.635
  0
ENDTAB
  0
TABLE
  2
LAYER
 70
     1
  0
LAYER
  2
0
 70
     0
 62
     7
  6
CONTINUOUS
  0
ENDTAB
  0
TABLE
  2
STYLE
 70
     2
  0
STYLE
  2
STANDARD
 70
     0
 40
0.0
 41
1.0
 50
0.0
 71
     0
 42
3.5
  3
txt
  4

  0
STYLE
  2
ANNOTATIVE
 70
     0
 40
0.0
 41
1.0
 50
0.0
 71
     0
 42
0.2
  3
txt
  4

  0
ENDTAB
  0
TABLE
  2
VIEW
 70
     0
  0
ENDTAB
  0
TABLE
  2
UCS
 70
     0
  0
ENDTAB
  0
TABLE
  2
APPID
 70
     4
  0
APPID
  2
ACAD
 70
     0
  0
APPID
  2
ACADANNOTATIVE
 70
     0
  0
APPID
  2
ACAD_NAV_VCDISPLAY
 70
     0
  0
APPID
  2
ACAD_MLEADERVER
 70
     0
  0
ENDTAB
  0
TABLE
  2
DIMSTYLE
 70
     3
  0
DIMSTYLE
  2
STANDARD
 70
     0
  3

  4

  5

  6

  7

 40
1.0
 41
0.18
 42
0.0625
 43
0.38
 44
0.18
 45
0.0
 46
0.0
 47
0.0
 48
0.0
140
0.18
141
0.09
142
0.0
143
25.399999999999999
144
1.0
145
0.0
146
1.0
147
0.09
 71
     0
 72
     0
 73
     1
 74
     1
 75
     0
 76
     0
 77
     0
 78
     0
170
     0
171
     2
172
     0
173
     0
174
     0
175
     0
176
     0
177
     0
178
     0
  0
DIMSTYLE
  2
ANNOTATIVE
 70
     0
  3

  4

  5

  6

  7

 40
1.0
 41
0.18
 42
0.0625
 43
0.38
 44
0.18
 45
0.0
 46
0.0
 47
0.0
 48
0.0
140
0.18
141
0.09
142
0.0
143
25.399999999999999
144
1.0
145
0.0
146
1.0
147
0.09
 71
     0
 72
     0
 73
     1
 74
     1
 75
     0
 76
     0
 77
     0
 78
     0
170
     0
171
     2
172
     0
173
     0
174
     0
175
     0
176
     0
177
     0
178
     0
  0
DIMSTYLE
  2
ISO-25
 70
     0
  3

  4

  5

  6

  7

 40
1.0
 41
2.5
 42
0.625
 43
3.75
 44
1.25
 45
0.0
 46
0.0
 47
0.0
 48
0.0
140
2.5
141
2.5
142
0.0
143
0.03937007874016
144
1.0
145
0.0
146
1.0
147
0.625
 71
     0
 72
     0
 73
     0
 74
     0
 75
     0
 76
     0
 77
     1
 78
     8
170
     0
171
     3
172
     1
173
     0
174
     0
175
     0
176
     0
177
     0
178
     0
  0
ENDTAB
  0
ENDSEC
  0
SECTION
  2
BLOCKS
  0
BLOCK
  8
0
  2
$MODEL_SPACE
 70
     0
 10
0.0
 20
0.0
 30
0.0
  3
$MODEL_SPACE
  1

  0
ENDBLK
  5
705
  8
0
  0
BLOCK
 67
     1
  8
0
  2
$PAPER_SPACE
 70
     0
 10
0.0
 20
0.0
 30
0.0
  3
$PAPER_SPACE
  1

  0
ENDBLK
  5
701
 67
     1
  8
0
  0
ENDSEC
  0
SECTION
  2
ENTITIES
  0
POLYLINE
  5
CA
  8
0
  6
CONTINUOUS
 62
     7
 66
     1
 10
0.0
 20
0.0
 30
0.0
 70
   128
  0
VERTEX
  5
725
  8
0
  6
CONTINUOUS
 62
     7
 10
17.732117896824061
 20
37.943847469857509
 30
0.0
  0
VERTEX
  5
726
  8
0
  6
CONTINUOUS
 62
     7
 10
17.955313759799282
 20
37.720651603794423
 30
0.0
  0
VERTEX
  5
727
  8
0
  6
CONTINUOUS
 62
     7
 10
18.175076560482289
 20
37.500888793895079
 30
0.0
  0
VERTEX
  5
728
  8
0
  6
CONTINUOUS
 62
     7
 10
18.38802604488648
 20
37.287939294287881
 30
0.0
  0
VERTEX
  5
729
  8
0
  6
CONTINUOUS
 62
     7
 10
18.5908867571959
 20
37.085078561022549
 30
0.0
  0
VERTEX
  5
72A
  8
0
  6
CONTINUOUS
 62
     7
 10
18.78053842077874
 20
36.895426871053289
 30
0.0
  0
VERTEX
  5
72B
  8
0
  6
CONTINUOUS
 62
     7
 10
18.954063932331291
 20
36.721901328089643
 30
0.0
  0
VERTEX
  5
72C
  8
0
  6
CONTINUOUS
 62
     7
 10
19.00490990219923
 20
36.671055062960917
 30
0.0
  0
SEQEND
  5
72D
  8
0
  6
CONTINUOUS
 62
     7
  0
POLYLINE
  5
CC
  8
0
  6
CONTINUOUS
 62
     7
 66
     1
 10
0.0
 20
0.0
 30
0.0
 70
   128
  0
VERTEX
  5
72E
  8
0
  6
CONTINUOUS
 62
     7
 10
16.176482777452129
 20
39.49948218770642
 30
0.0
  0
VERTEX
  5
72F
  8
0
  6
CONTINUOUS
 62
     7
 10
16.227328934435121
 20
39.44863601365568
 30
0.0
  0
VERTEX
  5
730
  8
0
  6
CONTINUOUS
 62
     7
 10
16.400854430111519
 20
39.27511046845391
 30
0.0
  0
VERTEX
  5
731
  8
0
  6
CONTINUOUS
 62
     7
 10
16.590506075184329
 20
39.08545877488001
 30
0.0
  0
VERTEX
  5
732
  8
0
  6
CONTINUOUS
 62
     7
 10
16.793366766634549
 20
38.882598036699058
 30
0.0
  0
VERTEX
  5
733
  8
0
  6
CONTINUOUS
 62
     7
 10
17.006316228151171
 20
38.669648530940783
 30
0.0
  0
VERTEX
  5
734
  8
0
  6
CONTINUOUS
 62
     7
 10
17.226079004270339
 20
38.449885713749559
 30
0.0
  0
VERTEX
  5
735
  8
0
  6
CONTINUOUS
 62
     7
 10
17.4492751843494
 20
38.226690182332071
 30
0.0
  0
SEQEND
  5
736
  8
0
  6
CONTINUOUS
 62
     7
  0
POLYLINE
  5
E3
  8
0
  6
CONTINUOUS
 62
     7
 66
     1
 10
0.0
 20
0.0
 30
0.0
 70
   128
  0
VERTEX
  5
737
  8
0
  6
CONTINUOUS
 62
     7
 10
-6.1593034991252038
 20
14.780987143240131
 30
0.0
  0
VERTEX
  5
738
  8
0
  6
CONTINUOUS
 62
     7
 10
-6.1593034991252038
 20
14.83951423984497
 30
0.0
  0
VERTEX
  5
739
  8
0
  6
CONTINUOUS
 62
     7
 10
-6.1593034991252038
 20
14.89579217294966
 30
0.0
  0
VERTEX
  5
73A
  8
0
  6
CONTINUOUS
 62
     7
 10
-6.1593034991252082
 20
14.94765821314601
 30
0.0
  0
VERTEX
  5
73B
  8
0
  6
CONTINUOUS
 62
     7
 10
-6.1593034991252082
 20
14.9931191775961
 30
0.0
  0
VERTEX
  5
73C
  8
0
  6
CONTINUOUS
 62
     7
 10
-6.1593034991252082
 20
15.030428026930901
 30
0.0
  0
VERTEX
  5
73D
  8
0
  6
CONTINUOUS
 62
     7
 10
-6.1593034991252082
 20
15.058151002993521
 30
0.0
  0
VERTEX
  5
73E
  8
0
  6
CONTINUOUS
 62
     7
 10
-6.1593034991252082
 20
15.075222727361099
 30
0.0
  0
VERTEX
  5
73F
  8
0
  6
CONTINUOUS
 62
     7
 10
-6.1593031528343234
 20
15.080987143240581
 30
0.0
  0
SEQEND
  5
740
  8
0
  6
CONTINUOUS
 62
     7
  0
LINE
  5
F6
  8
0
  6
CONTINUOUS
 62
     7
 10
20.39293756206904
 20
34.433658573162091
 30
0.0
 11
19.41143624192685
 21
34.624442868391647
 31
0.0
  0
LINE
  5
F7
  8
0
  6
CONTINUOUS
 62
     7
 10
19.41143624192685
 20
34.624442868391647
 30
0.0
 11
19.359257136287798
 21
34.654568639734492
 31
0.0
  0
LINE
  5
F8
  8
0
  6
CONTINUOUS
 62
     7
 10
19.359257136287798
 20
34.654568639734492
 30
0.0
 11
18.734551279302551
 21
33.572548402982029
 31
0.0
  0
LINE
  5
F9
  8
0
  6
CONTINUOUS
 62
     7
 10
18.734551279302551
 20
33.572548402982029
 30
0.0
 11
18.786731711937762
 21
33.542421308831962
 31
0.0
  0
LINE
  5
FA
  8
0
  6
CONTINUOUS
 62
     7
 10
18.786731711937762
 20
33.542421308831962
 30
0.0
 11
19.442703945071841
 21
32.787809645112588
 31
0.0
  0
LINE
  5
FB
  8
0
  6
CONTINUOUS
 62
     7
 10
19.442703945071841
 20
32.787809645112588
 30
0.0
 11
18.843166342093689
 21
31.749378469345629
 31
0.0
  0
LINE
  5
FC
  8
0
  6
CONTINUOUS
 62
     7
 10
18.843166342093689
 20
31.749378469345629
 30
0.0
 11
17.86166633904039
 21
31.94016408166252
 31
0.0
  0
LINE
  5
FD
  8
0
  6
CONTINUOUS
 62
     7
 10
17.86166633904039
 20
31.94016408166252
 30
0.0
 11
17.809487223494259
 21
31.970289858723479
 31
0.0
  0
LINE
  5
FE
  8
0
  6
CONTINUOUS
 62
     7
 10
17.80948722349428
 20
31.970289858723511
 30
0.0
 11
17.18478171928372
 21
30.888268185662859
 31
0.0
  0
LINE
  5
FF
  8
0
  6
CONTINUOUS
 62
     7
 10
17.18478171928372
 20
30.888268185662859
 30
0.0
 11
17.236961789236599
 21
30.858142533540182
 31
0.0
  0
LINE
  5
100
  8
0
  6
CONTINUOUS
 62
     7
 10
17.236961789236599
 20
30.858142533540182
 30
0.0
 11
17.89167488527298
 21
30.104979667740661
 31
0.0
  0
LINE
  5
101
  8
0
  6
CONTINUOUS
 62
     7
 10
17.89167488527298
 20
30.104979667740661
 30
0.0
 11
17.582050965221679
 21
29.565044294001911
 31
0.0
  0
LINE
  5
102
  8
0
  6
CONTINUOUS
 62
     7
 10
16.034345480809701
 20
28.017339396713002
 30
0.0
 11
17.582050965221679
 21
29.565044294001911
 31
0.0
  0
LINE
  5
103
  8
0
  6
CONTINUOUS
 62
     7
 10
13.91302513725026
 20
25.896019053153559
 30
0.0
 11
15.61008119272409
 21
27.593075108627168
 31
0.0
  0
LINE
  5
104
  8
0
  6
CONTINUOUS
 62
     7
 10
13.48876115999688
 20
25.471755075899619
 30
0.0
 11
12.85236525903191
 21
24.835358587812131
 31
0.0
  0
LINE
  5
105
  8
0
  6
CONTINUOUS
 62
     7
 10
12.428100814361359
 20
24.41109473026421
 30
0.0
 11
11.79170508725163
 21
23.77469841603186
 31
0.0
  0
LINE
  5
106
  8
0
  6
CONTINUOUS
 62
     7
 10
11.36744050560427
 20
23.3504344215069
 30
0.0
 11
10.73104491547338
 21
22.714038244253612
 31
0.0
  0
LINE
  5
107
  8
0
  6
CONTINUOUS
 62
     7
 10
10.306780489241801
 20
22.289774405144868
 30
0.0
 11
9.6703847436932087
 21
21.65337807247343
 31
0.0
  0
LINE
  5
108
  8
0
  6
CONTINUOUS
 62
     7
 10
9.2461207664394145
 20
21.229114095219639
 30
0.0
 11
8.6097242783518215
 21
20.592718194255781
 31
0.0
  0
LINE
  5
109
  8
0
  6
CONTINUOUS
 62
     7
 10
8.1854604208039881
 20
20.168453749584209
 30
0.0
 11
7.5490641065710298
 21
19.5320580224741
 31
0.0
  0
LINE
  5
10A
  8
0
  6
CONTINUOUS
 62
     7
 10
7.1248004044393394
 20
19.107793733219559
 30
0.0
 11
6.488403934791461
 21
18.471397850694981
 31
0.0
  0
LINE
  5
10B
  8
0
  6
CONTINUOUS
 62
     7
 10
6.0641401411219
 20
18.047133469902121
 30
0.0
 11
5.4414292943066211
 21
17.424422623086851
 31
0.0
  0
LINE
  5
10C
  8
0
  6
CONTINUOUS
 62
     7
 10
5.3535613286624724
 20
15.38098714324126
 30
0.0
 11
5.353561328662475
 21
17.212290588730909
 31
0.0
  0
LINE
  5
10D
  8
0
  6
CONTINUOUS
 62
     7
 10
5.0535613286623962
 20
15.080987143241179
 30
0.0
 11
3.8535615897347042
 21
15.080987143241179
 31
0.0
  0
LINE
  5
10E
  8
0
  6
CONTINUOUS
 62
     7
 10
3.8535615897347042
 20
11.15248975837825
 30
0.0
 11
3.8535615897347042
 21
15.080987143241179
 31
0.0
  0
LINE
  5
10F
  8
0
  6
CONTINUOUS
 62
     7
 10
3.8535615897347042
 20
11.15248975837825
 30
0.0
 11
3.803561589734703
 21
10.580987143240151
 31
0.0
  0
LINE
  5
110
  8
0
  6
CONTINUOUS
 62
     7
 10
3.803561589734703
 20
1.157132824439919
 30
0.0
 11
3.803561589734703
 21
10.580987143240151
 31
0.0
  0
LINE
  5
111
  8
0
  6
CONTINUOUS
 62
     7
 10
3.803561589734703
 20
1.157132824439919
 30
0.0
 11
3.5035615897336241
 21
-0.0000000000000451
 31
0.0
  0
LINE
  5
112
  8
0
  6
CONTINUOUS
 62
     7
 10
-3.8642969124136761
 20
-0.0000000000000451
 30
0.0
 11
3.5035615897336241
 21
-0.0000000000000451
 31
0.0
  0
LINE
  5
113
  8
0
  6
CONTINUOUS
 62
     7
 10
-3.7964384102655671
 20
1.1571328244399171
 30
0.0
 11
-3.4964384102644912
 21
-0.0000000000000451
 31
0.0
  0
LINE
  5
114
  8
0
  6
CONTINUOUS
 62
     7
 10
-3.7964384102655671
 20
10.58098714324014
 30
0.0
 11
-3.7964384102655671
 21
1.1571328244399171
 31
0.0
  0
LINE
  5
115
  8
0
  6
CONTINUOUS
 62
     7
 10
-3.7964384102655671
 20
10.58098714324014
 30
0.0
 11
-3.8464384102655682
 21
11.15248975837825
 31
0.0
  0
LINE
  5
116
  8
0
  6
CONTINUOUS
 62
     7
 10
-3.8464384102655682
 20
15.080987143241179
 30
0.0
 11
-3.8464384102655682
 21
11.152489758378341
 31
0.0
  0
LINE
  5
117
  8
0
  6
CONTINUOUS
 62
     7
 10
-6.1593031528337692
 20
15.080987143241179
 30
0.0
 11
-3.8464384102655682
 21
15.080987143241179
 31
0.0
  0
LINE
  5
118
  8
0
  6
CONTINUOUS
 62
     7
 10
-6.3593043243383187
 20
28.742493670196481
 30
0.0
 11
-6.3593038722312514
 21
15.28098713710996
 31
0.0
  0
LINE
  5
122
  8
0
  6
CONTINUOUS
 62
     7
 10
-5.1877314208825789
 20
31.570921068351669
 30
0.0
 11
5.1943717401798351
 21
41.953023815339527
 31
0.0
  0
LINE
  5
123
  8
0
  6
CONTINUOUS
 62
     7
 10
5.1943717401798351
 20
41.953023815339527
 30
0.0
 11
5.7343071139177004
 21
42.262647735392598
 31
0.0
  0
LINE
  5
124
  8
0
  6
CONTINUOUS
 62
     7
 10
5.7343071139177004
 20
42.262647735392598
 30
0.0
 11
6.4874699797189921
 21
41.60793463935623
 31
0.0
  0
LINE
  5
125
  8
0
  6
CONTINUOUS
 62
     7
 10
6.4874699797189868
 20
41.60793463935623
 30
0.0
 11
6.5175957567808434
 21
41.555755523810973
 31
0.0
  0
LINE
  5
126
  8
0
  6
CONTINUOUS
 62
     7
 10
6.5175957567808434
 20
41.555755523810973
 30
0.0
 11
7.5996173106220279
 21
42.180460063706931
 31
0.0
  0
LINE
  5
127
  8
0
  6
CONTINUOUS
 62
     7
 10
7.5996173106220279
 20
42.180460063706931
 30
0.0
 11
7.5694915335595079
 21
42.23263917925216
 31
0.0
  0
LINE
  5
128
  8
0
  6
CONTINUOUS
 62
     7
 10
7.5694915335595052
 20
42.23263917925216
 30
0.0
 11
7.3787059212408419
 21
43.214139182304351
 31
0.0
  0
LINE
  5
129
  8
0
  6
CONTINUOUS
 62
     7
 10
7.3787059212408401
 20
43.214139182304358
 30
0.0
 11
8.4171370970098032
 21
43.813676785284052
 31
0.0
  0
LINE
  5
12A
  8
0
  6
CONTINUOUS
 62
     7
 10
8.4171370970098032
 20
43.813676785284052
 30
0.0
 11
9.1717487607273984
 21
43.157704552148211
 31
0.0
  0
LINE
  5
12B
  8
0
  6
CONTINUOUS
 62
     7
 10
9.1717487607273984
 20
43.157704552148211
 30
0.0
 11
9.2018737441103529
 21
43.105523480924688
 31
0.0
  0
LINE
  5
12C
  8
0
  6
CONTINUOUS
 62
     7
 10
9.2018737441103529
 20
43.105523480924688
 30
0.0
 11
10.2838952246461
 21
43.730228873980963
 31
0.0
  0
LINE
  5
12D
  8
0
  6
CONTINUOUS
 62
     7
 10
10.2838952246461
 20
43.730228873980963
 30
0.0
 11
10.25377031456895
 21
43.782409092045157
 31
0.0
  0
LINE
  5
12E
  8
0
  6
CONTINUOUS
 62
     7
 10
10.25377031456895
 20
43.782409092045157
 30
0.0
 11
10.062986019339171
 21
44.76391041218735
 31
0.0
  0
LINE
  5
12F
  8
0
  6
CONTINUOUS
 62
     7
 10
10.062986019339171
 20
44.76391041218735
 30
0.0
 11
10.6012816172528
 21
45.07468415095088
 31
0.0
  0
LINE
  5
130
  8
0
  6
CONTINUOUS
 62
     7
 10
16.176482777452129
 20
39.49948218770642
 30
0.0
 11
10.6012816172528
 21
45.07468415095088
 31
0.0
  0
LINE
  5
131
  8
0
  6
CONTINUOUS
 62
     7
 10
16.176482777452211
 20
39.358060821283971
 30
0.0
 11
16.176482777452211
 21
39.499482589228961
 31
0.0
  0
LINE
  5
132
  8
0
  6
CONTINUOUS
 62
     7
 10
18.863488148742238
 20
36.671055062960981
 30
0.0
 11
16.176482777452211
 21
39.358060821283978
 31
0.0
  0
LINE
  5
133
  8
0
  6
CONTINUOUS
 62
     7
 10
19.004910303720902
 20
36.671055062961003
 30
0.0
 11
18.863488148742238
 21
36.671055062961003
 31
0.0
  0
LINE
  5
134
  8
0
  6
CONTINUOUS
 62
     7
 10
20.703820619220028
 20
34.972145148983657
 30
0.0
 11
19.00490990219923
 21
36.671055062960917
 31
0.0
  0
LINE
  5
135
  8
0
  6
CONTINUOUS
 62
     7
 10
20.703820619220028
 20
34.972145148983657
 30
0.0
 11
20.39293756206904
 21
34.433658573162091
 31
0.0
  0
LINE
  5
136
  8
0
  6
CONTINUOUS
 62
     7
 10
17.66140686262132
 20
37.873136435654722
 30
0.0
 11
17.732117896824061
 21
37.943847469857509
 31
0.0
  0
LINE
  5
137
  8
0
  6
CONTINUOUS
 62
     7
 10
17.3785642138036
 20
38.155979211786232
 30
0.0
 11
17.4492751843494
 21
38.226690182332071
 31
0.0
  0
LINE
  5
138
  8
0
  6
CONTINUOUS
 62
     7
 10
-5.4593034991252027
 20
14.08098714324014
 30
0.0
 11
-6.259303499125183
 21
14.08098714324014
 31
0.0
  0
LINE
  5
139
  8
0
  6
CONTINUOUS
 62
     7
 10
-5.4593034991252027
 20
14.08098714324014
 30
0.0
 11
-5.459303499125201
 21
6.3809871432401373
 31
0.0
  0
LINE
  5
13A
  8
0
  6
CONTINUOUS
 62
     7
 10
-6.4593034991251841
 20
13.88098714324013
 30
0.0
 11
-5.2593034991252043
 21
13.88098714324013
 31
0.0
  0
LINE
  5
13B
  8
0
  6
CONTINUOUS
 62
     7
 10
-6.259303499125183
 20
14.08098714324014
 30
0.0
 11
-6.259303499125183
 21
6.3809871432401373
 31
0.0
  0
LINE
  5
13C
  8
0
  6
CONTINUOUS
 62
     7
 10
-6.4593034991251832
 20
6.5809871432401357
 30
0.0
 11
-5.2593034991251999
 21
6.5809871432401357
 31
0.0
  0
LINE
  5
13D
  8
0
  6
CONTINUOUS
 62
     7
 10
-6.4593034991251832
 20
6.5809871432401357
 30
0.0
 11
-6.4593034991251841
 21
13.88098714324013
 31
0.0
  0
LINE
  5
13E
  8
0
  6
CONTINUOUS
 62
     7
 10
-5.2593034991252043
 20
13.88098714324013
 30
0.0
 11
-5.2593034991251999
 21
6.5809871432401357
 31
0.0
  0
LINE
  5
13F
  8
0
  6
CONTINUOUS
 62
     7
 10
-5.459303499125201
 20
6.3809871432401373
 30
0.0
 11
-6.259303499125183
 21
6.3809871432401373
 31
0.0
  0
LINE
  5
140
  8
0
  6
CONTINUOUS
 62
     7
 10
-5.5593034991252042
 20
14.08098714324014
 30
0.0
 11
-5.5593034991252042
 21
15.080987143241179
 31
0.0
  0
LINE
  5
141
  8
0
  6
CONTINUOUS
 62
     7
 10
-5.5593034991252042
 20
14.780987143240139
 30
0.0
 11
-6.1593034991252082
 21
14.780987143240131
 31
0.0
  0
LINE
  5
142
  8
0
  6
CONTINUOUS
 62
     7
 10
-4.2868371384651986
 20
0.7343891612351075
 30
0.0
 11
-4.1546956406122524
 21
0.2247100361226183
 31
0.0
  0
LINE
  5
143
  8
0
  6
CONTINUOUS
 62
     7
 10
-4.2964384102666244
 20
3.3937428463694901
 30
0.0
 11
-4.2964384102666244
 21
0.8096791251124418
 31
0.0
  0
LINE
  5
144
  8
0
  6
CONTINUOUS
 62
     7
 10
-6.1593034991252082
 20
14.780987143240131
 30
0.0
 11
-6.1593034991252091
 21
14.08098714324014
 31
0.0
  0
LINE
  5
145
  8
0
  6
CONTINUOUS
 62
     7
 10
-4.0964384102655691
 20
8.3000004169519794
 30
0.0
 11
-5.2593034991251999
 21
8.3000004169519794
 31
0.0
  0
LINE
  5
146
  8
0
  6
CONTINUOUS
 62
     7
 10
-5.2593034991251999
 20
7.5000004169520889
 30
0.0
 11
-4.0964384102655691
 21
7.5000004169520889
 31
0.0
  0
LINE
  5
147
  8
0
  6
CONTINUOUS
 62
     7
 10
17.4492751843494
 20
38.226690182332071
 30
0.0
 11
17.732117896824061
 21
37.943847469857509
 31
0.0
  0
ARC
  5
148
  8
0
  6
CONTINUOUS
 62
     7
 10
15.82221341036043
 20
27.805207179076561
 30
0.0
 40
0.3000001551207147
 50
224.99998012278911
 51
45.000019877241932
  0
ARC
  5
149
  8
0
  6
CONTINUOUS
 62
     7
 10
13.70089327822771
 20
25.683886934922441
 30
0.0
 40
0.2999999353293023
 50
224.99996499461389
 51
45.000035005463388
  0
ARC
  5
14A
  8
0
  6
CONTINUOUS
 62
     7
 10
12.64023306808059
 20
24.623226627654159
 30
0.0
 40
0.3000000582637721
 50
224.99995187865011
 51
44.999968831954853
  0
ARC
  5
14B
  8
0
  6
CONTINUOUS
 62
     7
 10
11.57957272324124
 20
23.56256649195619
 30
0.0
 40
0.3000001551210991
 50
224.99998012269029
 51
44.999940587970492
  0
ARC
  5
14C
  8
0
  6
CONTINUOUS
 62
     7
 10
10.51891263662025
 20
22.50190639043668
 30
0.0
 40
0.3000000452253858
 50
224.99997811061701
 51
44.999942599953812
  0
ARC
  5
14D
  8
0
  6
CONTINUOUS
 62
     7
 10
9.4582525911084954
 20
21.44124624780434
 30
0.0
 40
0.2999999353294239
 50
225.0000442841783
 51
44.999955715823482
  0
ARC
  5
14E
  8
0
  6
CONTINUOUS
 62
     7
 10
8.3975923809614148
 20
20.38058594053653
 30
0.0
 40
0.3000000582641062
 50
225.0000311682571
 51
45.000048121291677
  0
ARC
  5
14F
  8
0
  6
CONTINUOUS
 62
     7
 10
7.3369323354497658
 20
19.319925797902361
 30
0.0
 40
0.2999999483679962
 50
225.0000180521171
 51
45.000061237340383
  0
ARC
  5
150
  8
0
  6
CONTINUOUS
 62
     7
 10
6.2762721664613439
 20
18.259265531794071
 30
0.0
 40
0.3000000130952361
 50
225.00000493632311
 51
45.000074353177361
  0
ARC
  5
151
  8
0
  6
CONTINUOUS
 62
     7
 10
5.65356132866268
 20
17.212290588730681
 30
0.0
 40
0.3000000000002085
 50
134.99999999998619
 51
179.9999999999566
  0
ARC
  5
152
  8
0
  6
CONTINUOUS
 62
     7
 10
5.0535613286623962
 20
15.38098714324126
 30
0.0
 40
0.3000000000000806
 50
270.00000000000171
 51
0.0000000000003393
  0
ARC
  5
153
  8
0
  6
CONTINUOUS
 62
     7
 10
-6.1593031298619749
 20
15.28098788561185
 30
0.0
 40
0.2000007423706744
 50
180.0002144292036
 51
269.99999341909228
  0
ARC
  5
15E
  8
0
  6
CONTINUOUS
 62
     7
 10
-6.259303499125183
 20
13.88098714324013
 30
0.0
 40
0.2000000000000011
 50
90.0
 51
180.0
  0
ARC
  5
15F
  8
0
  6
CONTINUOUS
 62
     7
 10
-5.4593034991252019
 20
13.880987143240141
 30
0.0
 40
0.2000000000000011
 50
0.0000000000005089
 51
90.000000000000256
  0
ARC
  5
160
  8
0
  6
CONTINUOUS
 62
     7
 10
-5.4593034991252081
 20
6.5809871432401472
 30
0.0
 40
0.2000000000000082
 50
270.00000000000369
 51
359.99999999999881
  0
ARC
  5
161
  8
0
  6
CONTINUOUS
 62
     7
 10
-6.2593034991251848
 20
6.580987143240133
 30
0.0
 40
0.1999999999999957
 50
179.9999999999992
 51
270.0000000000029
  0
ARC
  5
162
  8
0
  6
CONTINUOUS
 62
     7
 10
-3.9964384102665318
 20
0.8096791251124514
 30
0.0
 40
0.3000000000000906
 50
180.0000000000035
 51
194.5347147754764
  0
ARC
  5
163
  8
0
  6
CONTINUOUS
 62
     7
 10
-4.5964384102666269
 20
3.3937428463694861
 30
0.0
 40
0.3000000000000054
 50
0.0000000000006785
 51
52.892974240524161
  0
ARC
  5
164
  8
0
  6
CONTINUOUS
 62
     7
 10
-3.6839384103728801
 20
4.5999766546328082
 30
0.0
 40
1.2125000000011601
 50
120.1870677931458
 51
232.89297424052609
  0
ARC
  5
165
  8
0
  6
CONTINUOUS
 62
     7
 10
-4.7964384102655711
 20
6.5124358045871054
 30
0.0
 40
1.0000000000000011
 50
300.18706779314749
 51
0.0000000000006616
  0
ARC
  5
166
  8
0
  6
CONTINUOUS
 62
     7
 10
-3.8642969124136708
 20
0.2999999999999635
 30
0.0
 40
0.3000000000000091
 50
194.53471477548069
 51
270.0000000000004
  0
ARC
  5
167
  8
0
  6
CONTINUOUS
 62
     7
 10
-4.0964384102655691
 20
7.200000416952089
 30
0.0
 40
0.3000000000000034
 50
0.0000000000003393
 51
89.999999999999446
  0
ARC
  5
168
  8
0
  6
CONTINUOUS
 62
     7
 10
-4.0964384102655691
 20
8.6000004169519801
 30
0.0
 40
0.3000000000000025
 50
270.00000000000199
 51
0.0000000000003393
  0
ARC
  5
169
  8
0
  6
CONTINUOUS
 62
     7
 10
-2.3593043243384071
 20
28.742493915403578
 30
0.0
 40
3.9999999999999161
 50
134.9999994287096
 51
180.00000351233459
  0
POLYLINE
  5
200
  8
0
  6
CONTINUOUS
 62
     7
 66
     1
 10
0.0
 20
0.0
 30
0.0
 70
   128
  0
VERTEX
  5
741
  8
0
  6
CONTINUOUS
 62
     7
 10
17.732118310173291
 20
-14.58530184481474
 30
0.0
  0
VERTEX
  5
742
  8
0
  6
CONTINUOUS
 62
     7
 10
17.955314173148508
 20
-14.6049130975818
 30
0.0
  0
VERTEX
  5
743
  8
0
  6
CONTINUOUS
 62
     7
 10
18.17507697383153
 20
-14.663445207855441
 30
0.0
  0
VERTEX
  5
744
  8
0
  6
CONTINUOUS
 62
     7
 10
18.388026458235711
 20
-14.75999787131445
 30
0.0
  0
VERTEX
  5
745
  8
0
  6
CONTINUOUS
 62
     7
 10
18.59088717054513
 20
-14.893085975262011
 30
0.0
  0
VERTEX
  5
746
  8
0
  6
CONTINUOUS
 62
     7
 10
18.78053883412797
 20
-15.060662441700631
 30
0.0
  0
VERTEX
  5
747
  8
0
  6
CONTINUOUS
 62
     7
 10
18.954064345680521
 20
-15.2601497142059
 30
0.0
  0
VERTEX
  5
748
  8
0
  6
CONTINUOUS
 62
     7
 10
19.108794644286231
 20
-15.488479404287681
 30
0.0
  0
VERTEX
  5
749
  8
0
  6
CONTINUOUS
 62
     7
 10
19.242349765241809
 20
-15.74213948742328
 30
0.0
  0
VERTEX
  5
74A
  8
0
  6
CONTINUOUS
 62
     7
 10
19.352675447186211
 20
-16.01722832282271
 30
0.0
  0
VERTEX
  5
74B
  8
0
  6
CONTINUOUS
 62
     7
 10
19.438074729464279
 20
-16.309514666027571
 30
0.0
  0
VERTEX
  5
74C
  8
0
  6
CONTINUOUS
 62
     7
 10
19.4972340537145
 20
-16.614502751267722
 30
0.0
  0
VERTEX
  5
74D
  8
0
  6
CONTINUOUS
 62
     7
 10
19.52924346820248
 20
-16.927501442519159
 30
0.0
  0
VERTEX
  5
74E
  8
0
  6
CONTINUOUS
 62
     7
 10
19.533610624129409
 20
-17.243696389625121
 30
0.0
  0
VERTEX
  5
74F
  8
0
  6
CONTINUOUS
 62
     7
 10
19.510268348633542
 20
-17.558224079619841
 30
0.0
  0
VERTEX
  5
750
  8
0
  6
CONTINUOUS
 62
     7
 10
19.45957567800107
 20
-17.866246644243901
 30
0.0
  0
VERTEX
  5
751
  8
0
  6
CONTINUOUS
 62
     7
 10
19.382312335194499
 20
-18.16302627300886
 30
0.0
  0
VERTEX
  5
752
  8
0
  6
CONTINUOUS
 62
     7
 10
19.279666736641609
 20
-18.44399808723562
 30
0.0
  0
VERTEX
  5
753
  8
0
  6
CONTINUOUS
 62
     7
 10
19.153217712757051
 20
-18.70484035416402
 30
0.0
  0
VERTEX
  5
754
  8
0
  6
CONTINUOUS
 62
     7
 10
19.004910516309248
 20
-18.94154089016455
 30
0.0
  0
SEQEND
  5
755
  8
0
  6
CONTINUOUS
 62
     7
  0
POLYLINE
  5
201
  8
0
  6
CONTINUOUS
 62
     7
 66
     1
 10
0.0
 20
0.0
 30
0.0
 70
   128
  0
VERTEX
  5
756
  8
0
  6
CONTINUOUS
 62
     7
 10
16.17648339156267
 20
-18.941540890164241
 30
0.0
  0
VERTEX
  5
757
  8
0
  6
CONTINUOUS
 62
     7
 10
16.02817592508509
 20
-18.70484029248604
 30
0.0
  0
VERTEX
  5
758
  8
0
  6
CONTINUOUS
 62
     7
 10
15.901726922097421
 20
-18.443998035807901
 30
0.0
  0
VERTEX
  5
759
  8
0
  6
CONTINUOUS
 62
     7
 10
15.79908134209748
 20
-18.163026232622439
 30
0.0
  0
VERTEX
  5
75A
  8
0
  6
CONTINUOUS
 62
     7
 10
15.72181801521452
 20
-17.86624661551998
 30
0.0
  0
VERTEX
  5
75B
  8
0
  6
CONTINUOUS
 62
     7
 10
15.671125357631411
 20
-17.558224063000221
 30
0.0
  0
VERTEX
  5
75C
  8
0
  6
CONTINUOUS
 62
     7
 10
15.647783092109909
 20
-17.243696385365439
 30
0.0
  0
VERTEX
  5
75D
  8
0
  6
CONTINUOUS
 62
     7
 10
15.652150254782841
 20
-16.927501450684939
 30
0.0
  0
VERTEX
  5
75E
  8
0
  6
CONTINUOUS
 62
     7
 10
15.68415967268465
 20
-16.614502771733349
 30
0.0
  0
VERTEX
  5
75F
  8
0
  6
CONTINUOUS
 62
     7
 10
15.743318996964049
 20
-16.309514698478271
 30
0.0
  0
VERTEX
  5
760
  8
0
  6
CONTINUOUS
 62
     7
 10
15.82871827588616
 20
-16.017228366759351
 30
0.0
  0
VERTEX
  5
761
  8
0
  6
CONTINUOUS
 62
     7
 10
15.93904395114113
 20
-15.74213954217006
 30
0.0
  0
VERTEX
  5
762
  8
0
  6
CONTINUOUS
 62
     7
 10
16.072599062176689
 20
-15.48847946900249
 30
0.0
  0
VERTEX
  5
763
  8
0
  6
CONTINUOUS
 62
     7
 10
16.227329347784352
 20
-15.260149787893351
 30
0.0
  0
VERTEX
  5
764
  8
0
  6
CONTINUOUS
 62
     7
 10
16.40085484346076
 20
-15.0606625232273
 30
0.0
  0
VERTEX
  5
765
  8
0
  6
CONTINUOUS
 62
     7
 10
16.59050648853356
 20
-14.893086063373911
 30
0.0
  0
VERTEX
  5
766
  8
0
  6
CONTINUOUS
 62
     7
 10
16.793367179983779
 20
-14.75999796465628
 30
0.0
  0
VERTEX
  5
767
  8
0
  6
CONTINUOUS
 62
     7
 10
17.006316641500401
 20
-14.663445304991489
 30
0.0
  0
VERTEX
  5
768
  8
0
  6
CONTINUOUS
 62
     7
 10
17.22607941761958
 20
-14.60491319701797
 30
0.0
  0
VERTEX
  5
769
  8
0
  6
CONTINUOUS
 62
     7
 10
17.44927559769863
 20
-14.58530184481474
 30
0.0
  0
SEQEND
  5
76A
  8
0
  6
CONTINUOUS
 62
     7
  0
POLYLINE
  5
202
  8
0
  6
CONTINUOUS
 62
     7
 66
     1
 10
0.0
 20
0.0
 30
0.0
 70
   128
  0
VERTEX
  5
76B
  8
0
  6
CONTINUOUS
 62
     7
 10
18.86348856209149
 20
-19.03595987691325
 30
0.0
  0
VERTEX
  5
76C
  8
0
  6
CONTINUOUS
 62
     7
 10
19.016439329973679
 20
-18.81764426852952
 30
0.0
  0
VERTEX
  5
76D
  8
0
  6
CONTINUOUS
 62
     7
 10
19.149708096778031
 20
-18.57489243796104
 30
0.0
  0
VERTEX
  5
76E
  8
0
  6
CONTINUOUS
 62
     7
 10
19.261359117943851
 20
-18.31123038418631
 30
0.0
  0
VERTEX
  5
76F
  8
0
  6
CONTINUOUS
 62
     7
 10
19.349770649216289
 20
-18.03048782964289
 30
0.0
  0
VERTEX
  5
770
  8
0
  6
CONTINUOUS
 62
     7
 10
19.413658502672948
 20
-17.736742593057102
 30
0.0
  0
VERTEX
  5
771
  8
0
  6
CONTINUOUS
 62
     7
 10
19.452094699704968
 20
-17.43426135864599
 30
0.0
  0
VERTEX
  5
772
  8
0
  6
CONTINUOUS
 62
     7
 10
19.464520950015839
 20
-17.127437702025681
 30
0.0
  0
VERTEX
  5
773
  8
0
  6
CONTINUOUS
 62
     7
 10
19.450756760853729
 20
-16.82072827300718
 30
0.0
  0
VERTEX
  5
774
  8
0
  6
CONTINUOUS
 62
     7
 10
19.411002058690119
 20
-16.518588062232109
 30
0.0
  0
VERTEX
  5
775
  8
0
  6
CONTINUOUS
 62
     7
 10
19.345834285264122
 20
-16.225405691908051
 30
0.0
  0
VERTEX
  5
776
  8
0
  6
CONTINUOUS
 62
     7
 10
19.25620001017316
 20
-15.945439670553171
 30
0.0
  0
VERTEX
  5
777
  8
0
  6
CONTINUOUS
 62
     7
 10
19.143401181837849
 20
-15.682756537657641
 30
0.0
  0
VERTEX
  5
778
  8
0
  6
CONTINUOUS
 62
     7
 10
19.009076216547591
 20
-15.44117179671774
 30
0.0
  0
VERTEX
  5
779
  8
0
  6
CONTINUOUS
 62
     7
 10
18.855176200270709
 20
-15.22419449459743
 30
0.0
  0
VERTEX
  5
77A
  8
0
  6
CONTINUOUS
 62
     7
 10
18.683936548900501
 20
-15.03497625220867
 30
0.0
  0
VERTEX
  5
77B
  8
0
  6
CONTINUOUS
 62
     7
 10
18.497844538575741
 20
-14.87626548684586
 30
0.0
  0
VERTEX
  5
77C
  8
0
  6
CONTINUOUS
 62
     7
 10
18.299603177701229
 20
-14.75036749110035
 30
0.0
  0
VERTEX
  5
77D
  8
0
  6
CONTINUOUS
 62
     7
 10
18.09209194543195
 20
-14.659110948213611
 30
0.0
  0
VERTEX
  5
77E
  8
0
  6
CONTINUOUS
 62
     7
 10
17.878324966898418
 20
-14.60382137023738
 30
0.0
  0
VERTEX
  5
77F
  8
0
  6
CONTINUOUS
 62
     7
 10
17.66140727597055
 20
-14.585301844814749
 30
0.0
  0
SEQEND
  5
780
  8
0
  6
CONTINUOUS
 62
     7
  0
LINE
  5
203
  8
0
  6
CONTINUOUS
 62
     7
 10
2.092144550441827
 20
-14.835301844814939
 30
0.0
 11
2.092144550441827
 21
-19.38530184481494
 31
0.0
  0
LINE
  5
204
  8
0
  6
CONTINUOUS
 62
     7
 10
-5.8970094003089191
 20
-14.835301844814939
 30
0.0
 11
-5.8970094003089191
 21
-19.38530184481494
 31
0.0
  0
LINE
  5
205
  8
0
  6
CONTINUOUS
 62
     7
 10
14.17036212788574
 20
-18.388410736139502
 30
0.0
 11
14.170362127885721
 21
-17.78219295349038
 31
0.0
  0
LINE
  5
206
  8
0
  6
CONTINUOUS
 62
     7
 10
14.68301454424552
 20
-19.03792978897739
 30
0.0
 11
14.31178348412306
 21
-18.734820897653272
 31
0.0
  0
LINE
  5
207
  8
0
  6
CONTINUOUS
 62
     7
 10
15.337088316843699
 20
-18.734820897653272
 30
0.0
 11
14.96585725672071
 21
-19.03792978897782
 31
0.0
  0
LINE
  5
208
  8
0
  6
CONTINUOUS
 62
     7
 10
15.478509673081041
 20
-17.78219295349038
 30
0.0
 11
15.478509673081041
 21
-18.388410736139491
 31
0.0
  0
LINE
  5
209
  8
0
  6
CONTINUOUS
 62
     7
 10
14.96585725672071
 20
-17.132673900652051
 30
0.0
 11
15.33708831684371
 21
-17.43578279197661
 31
0.0
  0
LINE
  5
20A
  8
0
  6
CONTINUOUS
 62
     7
 10
14.311783484118299
 20
-17.43578279198049
 30
0.0
 11
14.683014544246049
 21
-17.132673900652051
 31
0.0
  0
LINE
  5
20B
  8
0
  6
CONTINUOUS
 62
     7
 10
14.36481639090643
 20
-16.63530184481494
 30
0.0
 11
13.799130965957071
 21
-17.86530184481494
 31
0.0
  0
LINE
  5
20C
  8
0
  6
CONTINUOUS
 62
     7
 10
14.36481639090643
 20
-15.03530184481494
 30
0.0
 11
14.36481639090643
 21
-16.63530184481494
 31
0.0
  0
LINE
  5
20D
  8
0
  6
CONTINUOUS
 62
     7
 10
13.51849577647241
 20
-15.03530184481494
 30
0.0
 11
14.36481639090643
 21
-15.03530184481494
 31
0.0
  0
LINE
  5
20E
  8
0
  6
CONTINUOUS
 62
     7
 10
13.58920636436244
 20
-14.88530184481494
 30
0.0
 11
13.58920646616814
 21
-15.03530184481494
 31
0.0
  0
LINE
  5
20F
  8
0
  6
CONTINUOUS
 62
     7
 10
12.5285454710243
 20
-14.88530184481494
 30
0.0
 11
13.58920636436244
 21
-14.88530184481494
 31
0.0
  0
LINE
  5
210
  8
0
  6
CONTINUOUS
 62
     7
 10
12.52854601872666
 20
-15.03530184481494
 30
0.0
 11
12.5285454710243
 21
-14.88530184481494
 31
0.0
  0
LINE
  5
211
  8
0
  6
CONTINUOUS
 62
     7
 10
12.10281346436607
 20
-15.03530184481494
 30
0.0
 11
12.52854601872666
 21
-15.03530184481494
 31
0.0
  0
LINE
  5
212
  8
0
  6
CONTINUOUS
 62
     7
 10
12.102813260754109
 20
-18.63530184481494
 30
0.0
 11
12.10281346436607
 21
-15.03530184481494
 31
0.0
  0
LINE
  5
213
  8
0
  6
CONTINUOUS
 62
     7
 10
12.528546018726651
 20
-18.63530184481494
 30
0.0
 11
12.102813260754109
 21
-18.63530184481494
 31
0.0
  0
LINE
  5
214
  8
0
  6
CONTINUOUS
 62
     7
 10
12.52854601872666
 20
-18.785301844814921
 30
0.0
 11
12.528546018726651
 21
-18.63530184481494
 31
0.0
  0
LINE
  5
215
  8
0
  6
CONTINUOUS
 62
     7
 10
13.58920636436245
 20
-18.785301844814921
 30
0.0
 11
12.52854601872666
 21
-18.785301844814921
 31
0.0
  0
LINE
  5
216
  8
0
  6
CONTINUOUS
 62
     7
 10
13.58920636436245
 20
-18.63530184481494
 30
0.0
 11
13.58920636436245
 21
-18.785301844814921
 31
0.0
  0
LINE
  5
217
  8
0
  6
CONTINUOUS
 62
     7
 10
13.799130965957071
 20
-18.63530184481494
 30
0.0
 11
13.51849577647241
 21
-18.635301844814919
 31
0.0
  0
LINE
  5
218
  8
0
  6
CONTINUOUS
 62
     7
 10
13.799130965957071
 20
-17.86530184481494
 30
0.0
 11
13.799130965957071
 21
-18.63530184481494
 31
0.0
  0
LINE
  5
219
  8
0
  6
CONTINUOUS
 62
     7
 10
20.703821032569252
 20
-19.38530184481489
 30
0.0
 11
20.703821032569252
 21
-14.23530184481494
 31
0.0
  0
LINE
  5
21A
  8
0
  6
CONTINUOUS
 62
     7
 10
19.004910516309248
 20
-18.94154089016455
 30
0.0
 11
19.004910717070128
 21
-19.385301844814741
 31
0.0
  0
LINE
  5
21B
  8
0
  6
CONTINUOUS
 62
     7
 10
17.44927559769863
 20
-14.58530184481474
 30
0.0
 11
17.732118310173291
 21
-14.58530184481474
 31
0.0
  0
LINE
  5
21C
  8
0
  6
CONTINUOUS
 62
     7
 10
16.176483592323951
 20
-19.38530184481494
 30
0.0
 11
16.17648339156267
 21
-18.941540890164241
 31
0.0
  0
LINE
  5
21D
  8
0
  6
CONTINUOUS
 62
     7
 10
10.601282030602031
 20
-14.23530184481494
 30
0.0
 11
10.601282030602031
 21
-19.38530184481494
 31
0.0
  0
LINE
  5
21E
  8
0
  6
CONTINUOUS
 62
     7
 10
10.062986432688399
 20
-14.23530184481494
 30
0.0
 11
10.062986432688399
 21
-19.38530184481494
 31
0.0
  0
LINE
  5
21F
  8
0
  6
CONTINUOUS
 62
     7
 10
8.4171375103590336
 20
-14.23530184481494
 30
0.0
 11
8.4171375103590336
 21
-19.38530184481494
 31
0.0
  0
LINE
  5
220
  8
0
  6
CONTINUOUS
 62
     7
 10
7.3787063345900732
 20
-19.385301844814951
 30
0.0
 11
7.3787063345900732
 21
-14.23530184481494
 31
0.0
  0
LINE
  5
221
  8
0
  6
CONTINUOUS
 62
     7
 10
9.171749174076627
 20
-14.23530184481494
 30
0.0
 11
9.171749174076627
 21
-19.38530184481494
 31
0.0
  0
LINE
  5
222
  8
0
  6
CONTINUOUS
 62
     7
 10
9.2018741574595833
 20
-14.23530184481494
 30
0.0
 11
9.2018741574595833
 21
-19.38530184481494
 31
0.0
  0
LINE
  5
223
  8
0
  6
CONTINUOUS
 62
     7
 10
13.51849577647241
 20
-15.03530184481494
 30
0.0
 11
13.51849577647241
 21
-14.88530184481494
 31
0.0
  0
LINE
  5
224
  8
0
  6
CONTINUOUS
 62
     7
 10
14.294105757342381
 20
-16.63530184481494
 30
0.0
 11
14.294105747157261
 21
-15.03530184481494
 31
0.0
  0
LINE
  5
225
  8
0
  6
CONTINUOUS
 62
     7
 10
13.728420362948331
 20
-17.86530184481494
 30
0.0
 11
14.294105757342381
 21
-16.63530184481494
 31
0.0
  0
LINE
  5
226
  8
0
  6
CONTINUOUS
 62
     7
 10
13.72842036294834
 20
-18.63530184481494
 30
0.0
 11
13.728420362948331
 21
-17.86530184481494
 31
0.0
  0
LINE
  5
227
  8
0
  6
CONTINUOUS
 62
     7
 10
13.51849577647241
 20
-18.785301844814921
 30
0.0
 11
13.51849577647241
 21
-18.635301844814919
 31
0.0
  0
LINE
  5
228
  8
0
  6
CONTINUOUS
 62
     7
 10
5.734307527266929
 20
-19.38530184481494
 30
0.0
 11
5.734307527266929
 21
-14.23530184481494
 31
0.0
  0
LINE
  5
229
  8
0
  6
CONTINUOUS
 62
     7
 10
5.1943721535290637
 20
-19.385301844814951
 30
0.0
 11
5.1943721535290637
 21
-14.23530184481494
 31
0.0
  0
LINE
  5
22A
  8
0
  6
CONTINUOUS
 62
     7
 10
20.703821032569252
 20
-14.23530184481494
 30
0.0
 11
-6.3593039109890892
 21
-14.23530184481494
 31
0.0
  0
LINE
  5
22B
  8
0
  6
CONTINUOUS
 62
     7
 10
6.4874703930682251
 20
-19.38530184481494
 30
0.0
 11
6.4874703930682251
 21
-14.23530184481494
 31
0.0
  0
LINE
  5
22C
  8
0
  6
CONTINUOUS
 62
     7
 10
6.517596170130072
 20
-19.38530184481494
 30
0.0
 11
6.517596170130072
 21
-14.23530184481494
 31
0.0
  0
LINE
  5
22D
  8
0
  6
CONTINUOUS
 62
     7
 10
-6.3593039109890892
 20
-14.835301844814939
 30
0.0
 11
3.16815841969456
 21
-14.835301844814939
 31
0.0
  0
LINE
  5
22E
  8
0
  6
CONTINUOUS
 62
     7
 10
-5.1877310075333511
 20
-14.835301844814939
 30
0.0
 11
-5.1877310075333511
 21
-14.23530184481494
 31
0.0
  0
LINE
  5
22F
  8
0
  6
CONTINUOUS
 62
     7
 10
3.16815841969456
 20
-14.835301844814939
 30
0.0
 11
3.16815841969456
 21
-19.385301844814951
 31
0.0
  0
LINE
  5
230
  8
0
  6
CONTINUOUS
 62
     7
 10
14.294105757342381
 20
-16.63530184481494
 30
0.0
 11
14.36481639090643
 21
-16.63530184481494
 31
0.0
  0
LINE
  5
231
  8
0
  6
CONTINUOUS
 62
     7
 10
13.728420362948331
 20
-17.86530184481494
 30
0.0
 11
13.799130965957071
 21
-17.86530184481494
 31
0.0
  0
LINE
  5
232
  8
0
  6
CONTINUOUS
 62
     7
 10
14.89514647806436
 20
-19.037929788977831
 30
0.0
 11
15.26637750126636
 21
-18.734820897653261
 31
0.0
  0
LINE
  5
233
  8
0
  6
CONTINUOUS
 62
     7
 10
15.26637749617381
 20
-17.43578279197661
 30
0.0
 11
14.895146467879259
 21
-17.132673900652051
 31
0.0
  0
LINE
  5
234
  8
0
  6
CONTINUOUS
 62
     7
 10
15.40779885241116
 20
-18.388410736139502
 30
0.0
 11
15.407798847318601
 21
-17.78219295349038
 31
0.0
  0
LINE
  5
235
  8
0
  6
CONTINUOUS
 62
     7
 10
14.89514647806436
 20
-19.037929788977831
 30
0.0
 11
14.96585725672071
 21
-19.03792978897782
 31
0.0
  0
LINE
  5
236
  8
0
  6
CONTINUOUS
 62
     7
 10
14.96585725672071
 20
-17.132673900652051
 30
0.0
 11
14.895146467879259
 21
-17.132673900652051
 31
0.0
  0
LINE
  5
237
  8
0
  6
CONTINUOUS
 62
     7
 10
15.26637749617381
 20
-17.43578279197661
 30
0.0
 11
15.33708831684371
 21
-17.43578279197661
 31
0.0
  0
LINE
  5
238
  8
0
  6
CONTINUOUS
 62
     7
 10
15.26637750126636
 20
-18.734820897653261
 30
0.0
 11
15.337088316843699
 21
-18.734820897653272
 31
0.0
  0
LINE
  5
239
  8
0
  6
CONTINUOUS
 62
     7
 10
15.407798847318601
 20
-17.78219295349038
 30
0.0
 11
15.478509673081041
 21
-17.78219295349038
 31
0.0
  0
LINE
  5
23A
  8
0
  6
CONTINUOUS
 62
     7
 10
15.40779885241116
 20
-18.388410736139502
 30
0.0
 11
15.478509673081041
 21
-18.388410736139491
 31
0.0
  0
LINE
  5
23B
  8
0
  6
CONTINUOUS
 62
     7
 10
18.863488562091469
 20
-19.38530184481494
 30
0.0
 11
18.86348856209149
 21
-19.03595987691325
 31
0.0
  0
LINE
  5
23C
  8
0
  6
CONTINUOUS
 62
     7
 10
2.326100124016377
 20
-19.38530184481494
 30
0.0
 11
2.326100124016377
 21
-14.835301844814939
 31
0.0
  0
LINE
  5
23D
  8
0
  6
CONTINUOUS
 62
     7
 10
0.5730894835637744
 20
-19.38530184481494
 30
0.0
 11
0.5730894835637737
 21
-14.835301844814939
 31
0.0
  0
LINE
  5
23E
  8
0
  6
CONTINUOUS
 62
     7
 10
0.4867464896690016
 20
-14.835301844814939
 30
0.0
 11
0.4867464896690026
 21
-19.38530184481494
 31
0.0
  0
LINE
  5
23F
  8
0
  6
CONTINUOUS
 62
     7
 10
-2.6850323535955551
 20
-19.38530184481494
 30
0.0
 11
-2.685032353595556
 21
-14.835301844814939
 31
0.0
  0
LINE
  5
240
  8
0
  6
CONTINUOUS
 62
     7
 10
-6.3593037910754431
 20
-19.38530184481494
 30
0.0
 11
-6.3593039109890892
 21
-14.23530184481494
 31
0.0
  0
LINE
  5
241
  8
0
  6
CONTINUOUS
 62
     7
 10
-5.3654355952690143
 20
-14.835301844814939
 30
0.0
 11
-5.3654355952690143
 21
-19.38530184481494
 31
0.0
  0
LINE
  5
242
  8
0
  6
CONTINUOUS
 62
     7
 10
-4.6956250330691587
 20
-19.38530184481494
 30
0.0
 11
-4.6956250330691587
 21
-14.835301844814939
 31
0.0
  0
LINE
  5
243
  8
0
  6
CONTINUOUS
 62
     7
 10
20.703821032569252
 20
-19.38530184481494
 30
0.0
 11
-6.3593037910754431
 21
-19.38530184481494
 31
0.0
  0
LINE
  5
244
  8
0
  6
CONTINUOUS
 62
     7
 10
-3.325374061709196
 20
-19.38530184481494
 30
0.0
 11
-3.325374061709196
 21
-14.835301844814939
 31
0.0
  0
LINE
  5
245
  8
0
  6
CONTINUOUS
 62
     7
 10
-5.8268226466739002
 20
-19.38530184481494
 30
0.0
 11
-5.8268226466739002
 21
-14.835301844814939
 31
0.0
  0
LINE
  5
246
  8
0
  6
CONTINUOUS
 62
     7
 10
-6.4593030857759519
 20
-16.135301844814869
 30
0.0
 11
-6.4593030857759519
 21
-18.135301844814869
 31
0.0
  0
LINE
  5
247
  8
0
  6
CONTINUOUS
 62
     8
 10
-6.3593037501618381
 20
-16.135301844814869
 30
0.0
 11
-6.4593030857759519
 21
-16.135301844814869
 31
0.0
  0
LINE
  5
248
  8
0
  6
CONTINUOUS
 62
     8
 10
-6.4593030857759519
 20
-18.135301844814869
 30
0.0
 11
-6.3593037501618381
 21
-18.135301844814869
 31
0.0
  0
ARC
  5
249
  8
0
  6
CONTINUOUS
 62
     7
 10
14.61911670431485
 20
-17.76332364793851
 30
0.0
 40
0.4491511110507146
 50
133.1769274763441
 51
182.40776392735771
  0
ARC
  5
24A
  8
0
  6
CONTINUOUS
 62
     7
 10
14.61911663533891
 20
-18.407280069850131
 30
0.0
 40
0.4491510433186451
 50
177.5922321141025
 51
226.8230764830974
  0
ARC
  5
24B
  8
0
  6
CONTINUOUS
 62
     7
 10
14.824435900483371
 20
-18.87585058844201
 30
0.0
 40
0.2151038522350026
 50
228.8938462983017
 51
311.10615370152323
  0
ARC
  5
24C
  8
0
  6
CONTINUOUS
 62
     7
 10
15.0297544476949
 20
-18.407279776755232
 30
0.0
 40
0.449151748304638
 50
313.17696471986562
 51
2.4077266829354831
  0
ARC
  5
24D
  8
0
  6
CONTINUOUS
 62
     7
 10
15.029754378722791
 20
-17.7633239410324
 30
0.0
 40
0.4491518160329564
 50
357.59227727544459
 51
46.82303132175474
  0
ARC
  5
24E
  8
0
  6
CONTINUOUS
 62
     7
 10
14.82443590048338
 20
-17.294753165548482
 30
0.0
 40
0.2151039007302519
 50
48.893857569449821
 51
131.10614243054891
  0
ARC
  5
24F
  8
0
  6
CONTINUOUS
 62
     7
 10
14.95904398534079
 20
-18.407279927555091
 30
0.0
 40
0.4491513966403991
 50
313.17694502385092
 51
2.4077478228921421
  0
ARC
  5
250
  8
0
  6
CONTINUOUS
 62
     7
 10
14.74687335476141
 20
-18.862933425525501
 30
0.0
 40
0.2293657479126979
 50
280.60379190232982
 51
310.27435942037278
  0
ARC
  5
251
  8
0
  6
CONTINUOUS
 62
     7
 10
14.746873308096831
 20
-17.307670348904079
 30
0.0
 40
0.2293658361933859
 50
49.725647320837318
 51
79.39620295509944
  0
ARC
  5
252
  8
0
  6
CONTINUOUS
 62
     7
 10
14.959043922443559
 20
-17.763323785673421
 30
0.0
 40
0.4491514534026417
 50
357.59225549458108
 51
46.82305165867686
  0
ARC
  5
253
  8
0
  6
CONTINUOUS
 62
     7
 10
17.04253747340363
 20
-16.155394982504419
 30
0.0
 40
3.4078610561896441
 50
302.29905573335219
 51
305.15828034227832
  0
ARC
  5
254
  8
0
  6
CONTINUOUS
 62
     7
 10
-6.2593030857759553
 20
-16.135301844814869
 30
0.0
 40
0.1999999999999993
 50
120.0002197773244
 51
179.9999999999998
  0
ARC
  5
255
  8
0
  6
CONTINUOUS
 62
     7
 10
-6.259303085775981
 20
-18.13530184481488
 30
0.0
 40
0.1999999999999742
 50
179.99999999999591
 51
239.99978022268161
  0
CIRCLE
  5
4BC
  8
0
  6
HIDDEN
 62
     7
 10
-4.3792591914510179
 20
17.039261480295782
 30
0.0
 40
0.7814249005352885
  0
CIRCLE
  5
4BD
  8
0
  6
HIDDEN
 62
     7
 10
10.885623559697899
 20
26.121309501340448
 30
0.0
 40
0.781424900535292
  0
CIRCLE
  5
4BE
  8
0
  6
HIDDEN
 62
     7
 10
0.4123665582101383
 20
26.867992902602431
 30
0.0
 40
0.7814249005352851
  0
CIRCLE
  5
4BF
  8
0
  6
HIDDEN
 62
     7
 10
-4.8593043749847524
 20
24.727937438465169
 30
0.0
 40
0.7814249005352858
  0
CIRCLE
  5
4C0
  8
0
  6
HIDDEN
 62
     7
 10
3.9980571394407729
 20
18.705465511935088
 30
0.0
 40
0.7814249005352876
  0
CIRCLE
  5
4C1
  8
0
  6
HIDDEN
 62
     7
 10
3.638254084500423
 20
37.830367698885802
 30
0.0
 40
0.7814249005352987
  0
LINE
  5
52E
  8
0
  6
CONTINUOUS
 62
     7
 10
4.4196793983849503
 20
-14.23530184481494
 30
0.0
 11
4.4196793983849503
 21
-12.835301844814939
 31
0.0
  0
LINE
  5
52F
  8
0
  6
CONTINUOUS
 62
     7
 10
2.8568295973143729
 20
-12.835301844814939
 30
0.0
 11
2.8568295973143729
 21
-14.23530184481494
 31
0.0
  0
LINE
  5
531
  8
0
  6
CONTINUOUS
 62
     7
 10
1.193791872094649
 20
-14.23530184481494
 30
0.0
 11
1.193791872094649
 21
-12.835301844814939
 31
0.0
  0
LINE
  5
532
  8
0
  6
CONTINUOUS
 62
     7
 10
-0.3690579289759199
 20
-12.835301844814939
 30
0.0
 11
-0.3690579289759199
 21
-14.23530184481494
 31
0.0
  0
LINE
  5
533
  8
0
  6
CONTINUOUS
 62
     7
 10
11.667048873582431
 20
-14.23530184481494
 30
0.0
 11
11.667048873582431
 21
-12.835301844814939
 31
0.0
  0
LINE
  5
534
  8
0
  6
CONTINUOUS
 62
     7
 10
10.10419907251185
 20
-12.835301844814939
 30
0.0
 11
10.10419907251185
 21
-14.23530184481494
 31
0.0
  0
LINE
  5
535
  8
0
  6
CONTINUOUS
 62
     7
 10
-4.0778790611002389
 20
-14.23530184481494
 30
0.0
 11
-4.0778790611002389
 21
-12.835301844814939
 31
0.0
  0
LINE
  5
536
  8
0
  6
CONTINUOUS
 62
     7
 10
-5.6407288621708158
 20
-12.835301844814939
 30
0.0
 11
-5.6407288621708158
 21
-14.23530184481494
 31
0.0
  0
LINE
  5
537
  8
0
  6
CONTINUOUS
 62
     7
 10
4.7794824533252864
 20
-14.23530184481494
 30
0.0
 11
4.7794824533252864
 21
-12.835301844814939
 31
0.0
  0
LINE
  5
538
  8
0
  6
CONTINUOUS
 62
     7
 10
-3.5978338775664991
 20
-14.23530184481494
 30
0.0
 11
-3.5978338775664991
 21
-12.835301844814939
 31
0.0
  0
LINE
  5
571
  8
0
  6
CONTINUOUS
 62
     7
 10
4.7794824533252864
 20
-12.835301844814939
 30
0.0
 11
2.8568295973143729
 21
-12.835301844814939
 31
0.0
  0
LINE
  5
57B
  8
0
  6
CONTINUOUS
 62
     7
 10
1.193791872094649
 20
-12.835301844814939
 30
0.0
 11
-0.3690579289759199
 21
-12.835301844814939
 31
0.0
  0
LINE
  5
57C
  8
0
  6
CONTINUOUS
 62
     7
 10
11.667048873582431
 20
-12.835301844814939
 30
0.0
 11
10.10419907251185
 21
-12.835301844814939
 31
0.0
  0
LINE
  5
57D
  8
0
  6
CONTINUOUS
 62
     7
 10
-3.5978338775664991
 20
-12.835301844814939
 30
0.0
 11
-5.6407288621708158
 21
-12.835301844814939
 31
0.0
  0
ENDSEC
  0
EOF
